Fórum Naruto Shippuuden 2010

Cifras e Tablaturas Naruto!

Ver o tópico anterior Ver o tópico seguinte Ir em baixo

Cifras e Tablaturas Naruto!

Mensagem por Yondaime Akatsuki em Dom 06 Abr 2008, 13:18

Hokage's funeral

fm pestana 5ºcasa
E-------------------------------------------
A---7-7-------------3---------------0-------
D---7---7-9---------2-----------------0-2-3-
G---5-------5-------0-0-----------2---------
B---5---------------2---1-3---1---3---------
E---5---------7-5-3---------0---3-----------

E-------------------------------------------
A---------3-3----------5-------------------
D---------3--3---------5-5-----------------
G---------2----0-2---2 4---4-----4---------
B---1-3-1-1--------1-- 3-------3-----------
E---------------------- 3-----3-----3-------

E-------------------------------------------
A---7-7-------------3---------------0-------
D---7---7-9---------2-----------------0-2-3-
G---5-------5-------0-0-----------2---------
B---5---------------2---1-3---1---3---------
E---5---------7-5-3---------0---3-----------


E--------------------------------------------
A---7-7-------------3---------------0--------
D---7---7-9---------2-----------------0-2-3--
G---5-------5-------0-0-----------2---------2
B---5---------------2---1-3---1---3----------
E---5---------7-5-3---------0---3------------

E--------------------------------------------
A---2-2-2-2-----------------7-10-10-7-7------
D---2---5---2-2------------------------------
G---0-------2---2-----2----------------------
B---0-------1-----0-1---------12-10-0---8----
E-----------------------5-7-8----------------

E---1-----3---3------------------------------
A-----3---------------------2-2-2-2----------
D-----------------3---2---2-2---5------------
G-------1---1---2---0---0---0----------------
B-------1---1---1---3---3---0----------------
E-------1---1---5---3---3--------------------


E-5-5-5--------------7-7-7-------------------
A-5---5-5/7-------7--7---7--7/9--------------
D-5---5-----4-5-7----7---7------6------------
G--------------------------------------------
B--------------------------------------------
E---------------------------------5-7-12-----

E-------------------------------------------
A---7-7-------------3---------------0-------
D---7---7-9---------2-----------------0-2-3-
G---5-------5-------0-0-----------2---------
B---5---------------2---1-3---1---3---------
E---5---------7-5-3---------0---3-----------

E--------------------------------------------
A---------7-------------7-------------------
D-------2---7-----------7-------------------
G-------2-------5-------5-------------------
B-1-3-1-1-----5-----5--5--------------------
E-----------------5-----5--------------------

Ouça a música para entender melhor, quando que tem que puxar as cordas
, e quando que tem que apenas tocá-las juntas



Última edição por Yondaime Akatsuki em Dom 06 Abr 2008, 19:30, editado 2 vez(es)
avatar
Yondaime Akatsuki
Hokage
Hokage

Masculino
Número de Mensagens : 752
Idade : 28
Cidade : Viajando por aqui na velocidade da luz
Personagem(ns) : Jiraya, Yondaime, Kakashi, Naruto
Jutsu(s) : Suiton Suishoha, Mokuton Hijutsu Jukai Kosan, Tajju Kage Bushin no jutsu, Rasengan,Mokun bushin, fuu
Respeito às regras :
100 / 100100 / 100

Reputação : 0
Data de inscrição : 28/01/2008

Ver perfil do usuário

Voltar ao Topo Ir em baixo

Re: Cifras e Tablaturas Naruto!

Mensagem por Yondaime Akatsuki em Dom 06 Abr 2008, 13:25

Nagareboshi shooting star

B F
Sora wo miya agereba
GM F
Hoshitachi ga hora mada daiteru
EB B
Kono hoshi no hitodachi mitaini
EB F
Samazama na hikari wo hanatte
B F
Sou sou dakara boku mo
GM F
Hitoki mo kagayaitaida
EB B
Me wo tojite kokoroni chikau
EB F
Nagareboshi ni yume wo takushite
B
Koko wa itsumo no kouen
F
Yake ga mieru suberidai no ue
GM
Mukashi kara boku no toku touseki
F
Nayami ga areba kokoni kurudesu
B
Ano koro no mama yume no tochuu de
F
Ima de kanaerarezu ni irun desu
GM
Moshi kashite kokoga mo shuuten
F
Nante yowane haite supaiso shisou no hi mo aru
B
Demo sono tabi ni omoi dasu
F
Nagareboshi wo sagashite ano hoshizora
GM
Chiisana koro no negai goto
F
Ima mukashi mo kawaranai mama
avatar
Yondaime Akatsuki
Hokage
Hokage

Masculino
Número de Mensagens : 752
Idade : 28
Cidade : Viajando por aqui na velocidade da luz
Personagem(ns) : Jiraya, Yondaime, Kakashi, Naruto
Jutsu(s) : Suiton Suishoha, Mokuton Hijutsu Jukai Kosan, Tajju Kage Bushin no jutsu, Rasengan,Mokun bushin, fuu
Respeito às regras :
100 / 100100 / 100

Reputação : 0
Data de inscrição : 28/01/2008

Ver perfil do usuário

Voltar ao Topo Ir em baixo

Re: Cifras e Tablaturas Naruto!

Mensagem por Yondaime Akatsuki em Dom 06 Abr 2008, 13:56

Música da morte do Gaara

E------------------------------------------------
A------------------------------------------------
D------------------------------------------------
G------------------------------------------------
B-7-6-11-6-14-12-9-11-14-6---------------------
E------------------------------------------------

E------------------------------------------------
A------------------------------------------------
D------------------------------------------------
G------------------------------------------------
B-7-6-11-6-14-12-9-11-14-----------------------
E--------------------------------13--------------

E------------------------------------------------
A-----------------------------------------------
D-----------------------------------------------
G-----------------------------------------------
B-------14-----------------------------14-14---
E-11-13----18-16-16-14-14-16-18--------------

E-----------------------------------------------
A-----------------------------------------------
D-----------------------------------------------
G-----------------------------------------------
B-----------------------------------------------
E-11-11----------------------------------------

Ouçam a música que fica mais fácil a compreensão do tempo entre cada nota Muito Feliz

avatar
Yondaime Akatsuki
Hokage
Hokage

Masculino
Número de Mensagens : 752
Idade : 28
Cidade : Viajando por aqui na velocidade da luz
Personagem(ns) : Jiraya, Yondaime, Kakashi, Naruto
Jutsu(s) : Suiton Suishoha, Mokuton Hijutsu Jukai Kosan, Tajju Kage Bushin no jutsu, Rasengan,Mokun bushin, fuu
Respeito às regras :
100 / 100100 / 100

Reputação : 0
Data de inscrição : 28/01/2008

Ver perfil do usuário

Voltar ao Topo Ir em baixo

Re: Cifras e Tablaturas Naruto!

Mensagem por Yondaime Akatsuki em Seg 07 Abr 2008, 02:30

E-0------------0-----------------------------
A---------------------------------------------
D----2------------2--------------------------
G---------------------------------------------
B------------3------------0------------------
E-------3-2---------3-2---------------------

E------------------------------------------
A------------------------------------------
D------------------------------------------
G------------------------------------------
B-----0--------------------3---------
E-2-0---0-3-5-0-3-2-2-3-5----3/5-5-

E------------------------------------------
A------------------------------------------
D------------------------------------------
G------------------------------------------
B-----0------------------------3-5------
E-2-0---0-3-5-0-3-2-2-3-5-----------

E-0-------------0--------------------------
A----2--------------------------------------
D------------------2------------------------
G-------------------------------------------
B------------3-------------0---------------
E-------3-2----------3-2------------------

E-0---------------------------------------
A------------------------------------------
D------------------------------------------
G------------------------------------------
B------------5-8-8-7-7-5-5-------------------5--
E---2-3-5-7--------------------3-5-3-2-5/7-7---5

E------------------------------------------
A------------------------------------------
D------------------------------------------
G------------------------------------------
B----------5-8-8-7-7-5-5------------0-3/5-3-1-0
E-2-3-5-7-----------------3-5-3-2---------------

/= Quer dizer que voce tem que tocar e deslizar o dedo de uma casa
para a outra exemplo: 3/5, toque na três e deslize até a cinco.

0= significa tocar a corda solta
avatar
Yondaime Akatsuki
Hokage
Hokage

Masculino
Número de Mensagens : 752
Idade : 28
Cidade : Viajando por aqui na velocidade da luz
Personagem(ns) : Jiraya, Yondaime, Kakashi, Naruto
Jutsu(s) : Suiton Suishoha, Mokuton Hijutsu Jukai Kosan, Tajju Kage Bushin no jutsu, Rasengan,Mokun bushin, fuu
Respeito às regras :
100 / 100100 / 100

Reputação : 0
Data de inscrição : 28/01/2008

Ver perfil do usuário

Voltar ao Topo Ir em baixo

Re: Cifras e Tablaturas Naruto!

Mensagem por 1cmdepinto em Sab 21 Jun 2008, 19:21

Como ouve a saída do meu grande amigo Yondaime Akatsuki, eu peguei o seu consentimento para continuar seu trabalho, mesmo que seja impossivel substituir ele, vou tentar ajudar como ele ajudava e retomarei todos seus trabalhos...

bom Vamos com as Cifras

Go!!!


Interação: -1 tom | -1/2 tom | +1/2 tom | +1 tom

INTRO: B

B E F# E
We are Fighting Dreamers Takami wo mezashite
B E F# E
Fighting Dreamers Narifuri kamawazu
B E F# E
Fighting Dreamers Shinjiru ga mama ni
B E F# B
Oli Oli Oli Oh-! Just go my way!

B
Right here Right now (Bang!)
C
Buppanase Like a dangan LINER!
B
Right here Right now (Burn!)
A A#
Buttakitteku ze Get the fire!


B
Right here Right now (Bang!)
C
Buppanase Like a dangan LINER!
B E F#
Right here Right now (Burn!)


B E F# B
Kewashii shura no michi no naka Hito no chizu wo hirogete doko e yuku?
B E F# B
Gokusaishoku no karasu ga Sore wo ubaitotte yaburisuteta


B E F# B
Saa kokoro no me Mihiraite Shika to ima wo mikiwamero! (Yeah!)
B E F# B
Ushinau mono nante nai sa Iza mairou!


B E F# E
We are Fighting Dreamers Takami wo mezashite
B E F# E
Fighting Dreamers Narifuri kamawazu
B E F# E
Fighting Dreamers Shinjiru ga mama ni
B E F# B
Oli Oli Oli Oh-! Just go my way!

B
Right here Right now (Bang!)
C
Buppanase Like a dangan LINER!
B
Right here Right now (Burn!)


B E F# B
Oto wo tatezu shinobiyoru kage ga Itsumo bokura wo madowaseru
B E F# B
Yuugenjikkou Ooki na kaze ga Uneri wo agete fukiareru


B E F# B
Kazashita surudoi katana de Onore no asu Kirihirake! (Yeah!)
B E F# B
Hoshou nante Doko ni mo nai sa Naa Sou daro!?
avatar
1cmdepinto
Moderador Lucas-Sama
Moderador Lucas-Sama

Feminino
Número de Mensagens : 1208
Idade : 25
Cidade : konoha
Personagem(ns) : Ero-sennin
Jutsu(s) : Fuuton Rasenshuriken
Respeito às regras :
100 / 100100 / 100

Reputação : 0
Data de inscrição : 28/01/2008

Ver perfil do usuário http://rpgtimec.forumeiros.com

Voltar ao Topo Ir em baixo

Re: Cifras e Tablaturas Naruto!

Mensagem por 1cmdepinto em Sab 21 Jun 2008, 19:35

Naruto Alive

Principal:

PARTE 1
E|------------------------------------|
B|------------------------------------|
G|-----4------------------------------|
D|---4---4------4--------6--------2---|
A|-2----------4---4----6---6----2---2-|
e|----------2--------4--------0-------|

PARTE 2 --> Repita a música inteira
E|------------------------------------|
B|------------------------------------|
G|-----4------------------------4-----|
D|---4---4------4-------------4---4---|
A|-2----------4---4--7-6-4--2---------|
e|----------2-------------------------|

Solo:

E|------------------------------------11--9-7-9--9-7------------------|
B|----------------7-9-11-12--14-12-14----------------9-7-9------------|
G|-8--6---6----6-8-----------------------------------------6-8------6-|
D|------9----9-------------------------------------------------9--9---|
A|--------------------------------------------------------------------|
e|--------------------------------------------------------------------|

Pós solo:
Parte 1 Parte 2
------------------------------
E|-9-\-7-| E|-7-/-11-9-\-7-|
Toca a B|-------| Toca a B|--------------|
Parte 1 G|-------| Parte 2 G|--------------|
e depois D|-------| D|--------------|
A|-------| A|--------------|
e|-------| e|--------------|

Obs: Parte 1 do pós solo é tocada 4x, e a parte 2 do pós solo é tocada na 4ª parte
junto com o final da PARTE 2 do Principal
avatar
1cmdepinto
Moderador Lucas-Sama
Moderador Lucas-Sama

Feminino
Número de Mensagens : 1208
Idade : 25
Cidade : konoha
Personagem(ns) : Ero-sennin
Jutsu(s) : Fuuton Rasenshuriken
Respeito às regras :
100 / 100100 / 100

Reputação : 0
Data de inscrição : 28/01/2008

Ver perfil do usuário http://rpgtimec.forumeiros.com

Voltar ao Topo Ir em baixo

Re: Cifras e Tablaturas Naruto!

Mensagem por 1cmdepinto em Dom 22 Jun 2008, 16:54

Hakura Katana

E
C#m B A
E
C#m B A

E C#m
Fumikomuze akuseru kake hiki wa naisa sou dayo
B A
Youru wo nukeru
E C#m
Nejikomu sa saigo ni sashihiki zero sa sou dayo
B A
Hibi wo kezuru

C#m G#m A E B/D#
Kokoro wo sotto hiraite gyutto hiki yosetara
C#m G#m A G# A G# A G# A G# A G# A G#
Todokuyo kitto tsutau yo motto sa aa

E

E B/D#
Iki isoide shiboritotte
C#m B A
Motsureru ashi dakedo mae yori zutto sou tokue

E B/D#
Ubaitotte tsukandatte
C#m B
Kimi ja nai nara imi wa naniosa

A E
Dakara motto motto motto haruka kanata

E

E C#m
Fumikomuze akuseru kake hiki wa naisa sou dayo
B A
Youru wo nukeru
E C#m
Nejikomu sa saigo ni sashihiki zero sa sou dayo
B A
Hibi wo kezuru

C#m G#m A E B/D#
Kokoro wo sotto hiraite gyutto hiki yosetara
C#m G#m A G# A G# A G# A G# A G# A G#
Todokuyo kitto tsutau yo motto sa aa

E

E B/D#
Iki isoide shiboritotte
C#m B A
Motsureru ashi dakedo mae yori zutto sou tokue

E B/D#
Ubaitotte tsukandatte
C#m B
Kimi ja nai nara imi wa naniosa

A
Dakara haruka kanata

E
C#m B A
E
C#m B A

G# C#m A B A
Itsuwaru ko do ni nareta kimi no sekai wo
G# C#m A Am
Murizubusu no sa shiroku shirou

E
C#m B A

Baixe essa Música Aqui
avatar
1cmdepinto
Moderador Lucas-Sama
Moderador Lucas-Sama

Feminino
Número de Mensagens : 1208
Idade : 25
Cidade : konoha
Personagem(ns) : Ero-sennin
Jutsu(s) : Fuuton Rasenshuriken
Respeito às regras :
100 / 100100 / 100

Reputação : 0
Data de inscrição : 28/01/2008

Ver perfil do usuário http://rpgtimec.forumeiros.com

Voltar ao Topo Ir em baixo

Re: Cifras e Tablaturas Naruto!

Mensagem por Conteúdo patrocinado


Conteúdo patrocinado


Voltar ao Topo Ir em baixo

Ver o tópico anterior Ver o tópico seguinte Voltar ao Topo


 
Permissão deste fórum:
Você não pode responder aos tópicos neste fórum